2 years ago (2015-10-04 03:37:23)

The Devil In I Guitar Tabs & Chords - Slipknot

6 0
174

Intro :

Guitar 1
|-----------------------------------------------------------------|
|-----------------------------------------------------------------|
|-----------------------------------------------------------------|
|-----------------------------------------7h8p7h8-7~~~~~~---------|
|-5~~~~~~-8---7~~~~~~-3---5~~~~~~~~~~~~~~-----------------8---5---|
|-----------------------------------------------------------------|


|------------------------------------------------------------------|
|------------------------------------------------------------------|
|------------------------------------------------------------------|
|------------------------------------------------------------------|
|---5h7h8---7-----3---5---------------------5h7h8---7-----3---5----|
|------------------------------------------------------------------|



Main Verse
Both guitars
|-----------------------------------------------------------------|
|-----------------------------------------------------------------|
|-----------------------------------------------------------------|
|-----------------------------------------------------------------|
|---------------------------------------------------5-------------|
|-100-0-0-100-0-0-100-0-0-300-200-100-0-0-100-0-0/6---6-0-1p0-1p0-|


|-------------------------------------------------------------------------|
|-------------------------------------------------------------------------|
|-------------------------------------------------------------------------|
|-------------------------------------------------------------------------|
|-------------------------------------------------------------------------|
|-100-0-0-100-0-0-100-0-0-300-200-100-0-0-100-0-0-1BU(3)(1)p0-1BU(3)(1)p0-|



Chorus
Both guitars
|------|-------------------------------------------------------------------|
|------|------10-10-10-10-9~~~~~---------------10-10-10-10-9~~~~~----------|
|------|-------------------------------------------------------------------|
|---3--|-0-----7--7--7--7-6~~~~~----3-----0-----7--7--7--7-6~~~~~----3-----|
|---3--|-0--------------------------3-----0--------------------------3-----|
|-0-3--|-0------------------------0-3-----0------------------------0-3-----|


Guitar 1
|-----------------------------------------------------------------|
|-----------------------------------------------------------------|
|-----------------------------------------------------------------|
|-----------------------------------------------------------------|
|-5-5-5-5-5-5-5-5-7-7-7-7-7-7-7-7-8-8-8-8-8-8-8-8-3-3-3-3-3-3-3-3-|
|-----------------------------------------------------------------|
|
|Guitar 2
|-----------------------------------------------------------------|
|-----------------------------------------------------------------|
|-----------------------------------------------------------------|
|-3-3-3-3-3-3-3-3-5-5-5-5-5-5-5-5-7-7-7-7-7-7-7-7-2-2-2-2-2-2-2-2-|
|-----------------------------------------------------------------|
|-----------------------------------------------------------------|


Both guitars
1st time
|----------------------------------|
|-10-----------8-------------------|
|----------------------------------|
|--7-----------5-------------------|
|----------------------0-2-3-1-----|
|----------------------0-2-3-1-----|


Guitar 1
2nd time
|----------------------------------|
|----------------------------------|
|----------------------------------|
|-/7~~~~~~~~~~-5~~~~~~-------------|
|----------------------0-2-3-1-----|
|----------------------0-2-3-1-----|
|
|Guitar 2
|----------------------------------|
|----------------------------------|
|----------------------------------|
|----------------------------------|
|-/8~~~~~~~~~~-7~~~~~~-0-2-3-1-----|
|----------------------0-2-3-1-----|



Clean Verse part 1
Guitar 1 (Clean)
|-----------------------------------------------------------------|
|---------6-------5-----------------------8-------6---------------|
|-----------------------------------------------------------------|
|-----------------------------------------------------------------|
|---------5-------3-----------------------7-------5---------------|
|-0-------------------------------0-------------------------------|


|-----------------------------------------------------------------|
|---------6-------5-----------------------------------------------|
|-----------------------------------------------------------------|
|-----------------------------------------------------------------|
|---------5-------3-----------------------------------------------|
|-0---------------------------5-5h7-----------5-----------0-1-----|

Clean Verse part 2
Guitar 2 plays this note gradually bending and releasing to sound the 16th fret
|-------------------------------------------------|
|-15-15-15-15-15-15-15-15-15-15-15-15-15-15-15-15-|
|-------------------------------------------------|
|-------------------------------------------------|
|-------------------------------------------------|
|-------------------------------------------------|


Guitar 1 (Clean)
|---------5-------3-----------------------6-------5---------------|
|---------6-------5-----------------------8-------6---------------|
|-----------------------------------------------------------------|
|-----------------------------------------------------------------|
|---------5-------3-----------------------7-------5---------------|
|-0-------------------------------0-------------------------------|


|---------5-------3-----------------------------------------------|
|---------6-------5-----------------------------------------------|
|-----------------------------------------------------------------|
|-----------------------------------------------------------------|
|---------5-------3-----------------------------------------------|
|-0---------------------------5-5h7-----------5-----------0-1-----|



- Repeat Chorus



Bridge
Both guitars
|-----------------------------------------------------------------|
|-----------------------------------------------------------------|
|-2-------9-------8---------5-----2-------9-----------------------|
|-0-------7-------6---------3-----0-------7-----------------------|
|-0-------7-------6---------3-----0-------7---------5-------------|
|-0-------7-------6-------0-3-----0-------7------/6---6-0-1p0-1p0-|


|-------------------------------------------------------------------|
|-------------------------------------------------------------------|
|-2-------9-------8---------5-----2-------9-------------------3-----|
|-0-------7-------6---------3-----0-------7-------------------1-----|
|-0-------7-------6---------3-----0-------7-------------------1-----|
|-0-------7-------6-------0-3-----0-------7-------1BU(3)1p0-0-1-----|



Repeat Clean Verse part 1


Repeat Clean Verse part 2


Repeat Chorus


Repeat Main Verse



Breakdown
Guitar 1
|-----------------------------------------------------------------|
|-----------------------------------------------------------------|
|-----------------------------------------------------------------|
|-----------------------------------------------------------------|
|-----------------5-5-5-5-5-5-5-5-3-3-3-3-3-3-3-3-3-3-3-3-3-3-3-3-|
|-0-0-0-0-0-0-0-0-------------------------------------------------|
|
|Guitar 2
|-----------------------------------------------------------------|
|-----------------------------------------------------------------|
|-----------------------------------------------------------------|
|-----------------3-3-3-3-3-3-3-3-2-2-2-2-2-2-2-2-2-2-2-2-2-2-2-2-|
|-----------------------------------------------------------------|
|-0-0-0-0-0-0-0-0-------------------------------------------------|


Guitar 1
|-----------------------------------------------------------------|
|-----------------------------------------------------------------|
|-----------------------------------------------------------------|
|-----------------------------------------------------------------|
|-----------------7-7-7-7-7-7-7-7-5-5-5-5-5-5-5-5-5-5-5-5-5-5-5-5-|
|-0-0-0-0-0-0-0-0-------------------------------------------------|
|
|Guitar 2
|-----------------------------------------------------------------|
|-----------------------------------------------------------------|
|-----------------------------------------------------------------|
|-----------------5-5-5-5-5-5-5-5-3-3-3-3-3-3-3-3-3-3-3-3-3-3-3-3-|
|-----------------------------------------------------------------|
|-0-0-0-0-0-0-0-0-------------------------------------------------|


Guitar 1
|-----------------------------------------------------------------|
|-----------------------------------------------------------------|
|-----------------------------------------------------------------|
|-----------------------------------------------------------------|
|-----------------5-5-5-5-5-5-5-5-3-3-3-3-3-3-3-3-3-3-3-3---------|
|-0-0-0-0-0-0-0-0-----------------------------------------5-5-5-5-|
|
|Guitar 2
|-----------------------------------------------------------------|
|-----------------------------------------------------------------|
|-----------------------------------------------------------------|
|-----------------3-3-3-3-3-3-3-3-2-2-2-2-2-2-2-2-2-2-2-2---------|
|-----------------------------------------------------------------|
|-0-0-0-0-0-0-0-0-----------------------------------------5-5-5-5-|


Both guitars
|-----------------------------------------------------------------|
|-----------------------------------------------------------------|
|-----------------------------------------------------------------|
|-----------------------------------------------------------------|
|-----------------------------------------------------------------|
|-7-7-7-7-7-7-7-7-7-7-7-7-5-5-5-5-5-5-5-5-5-5-5-5-1-1-1-1-1-1-1-1-|



Repeat Chorus


Repeat Bridge


Repeat Clean Verse part 1 and 2 for Outro

Sign up or Sign in for free.
And start a new thread.
No Threads
More notes by Anonymous