3 years ago (2015-09-25 15:57:23)

The Handler Guitar Tabs - Muse

9 0
189

Tuning:DADGBE


Intro: (0:00-:22)
e|--------------------------------------------|
B|--------------------------------------------|
G|--------------------------------------------|
D|------------------X3------------------------|
A|--------------------------------------------|
D|0-/12-12-12--12-/0----0/12-12--12-12-12--12-|


e|---------------------------------------------------------------------------------------------------|
B|---------------------------------------------------------------------------------------------------|
G|---------------------------------------------------------------------------------------------------|
D|---------------------------------------------------------------------------------------------------|
A|---------------------------------------------------------------------------------------------------|
D|-12--0--0--0--3--3--3--/7--7--7--7--15-15-15-15-15--/8--8--8--0--14--0--14--/7--7--7--/12-12-12-12-|


e|--------------------------------------------------------------------------------------------------------|
B|--------------------------------------------------------------------------------------------------------|
G|--------------------------------------------------------------------------------------------------------|
D|--------------------------------------------------------------------------------------------------------|
A|--------------------------------------------------------------------------------------------------------|
D|-12--0--0--0--3--3--3--/7--7--7--7--15-15-15-15-15--/8--8--8--0--/14-14-14-14-14--/7--7--7--/12-12-12-12|



Verse 1: (0:22-:51)
e|---------------------------------------------------------------------------------------------------|
B|---------------------------------------------------------------------------------------------------|
G|---------------------------------------------------------------------------------------------------|
D|---------------------------------------------------------------------------------------------------|
A|---------------------------------------------------------------------------------------------------|
D|-12--0--0--0--3--3--3--/7--7--7--7--15-15-15-15-15--/8--8--8--0--14--0--14--/7--7--7--/12-12-12-12-|


e|--------------------------------------------------------------------------------------------------------|
B|--------------------------------------------------------------------------------------------------------|
G|--------------------------------------------------------------------------------------------------------|
D|--------------------------------------------------------------------------------------------------------|X3
A|--------------------------------------------------------------------------------------------------------|
D|-12--0--0--0--3--3--3--/7--7--7--7--15-15-15-15-15--/8--8--8--0--/14-14-14-14-14--/7--7--7--/12-12-12-12|


Chorus 1: (0:51-1:21)
e|-----------------------------------------------------------------------------------|
B|-----------------------------------------------------------------------------------|
G|-----------------------------------------------------------------------------------|
D|-----------------------------------------------------------------------------------|
A|--5--------------------5--------------------5--------------------7-----------------|
D|-----5-5-5-5--5-5-5-------3-3-3-3--3-3-3-------2-2-2-2--2-2-2-------7-7-7-7--7-7-7-|


e|------------------------------------------------------------------------------------------|
B|------------------------------------------------------------------------------------------|
G|------------------------------------------------------------------------------------------|
D|-------------------------------------------------------------------------7----------------|
A|-13-------------------------12------------------------11----------------------------------|
D|-----12-12-12-12--12-12-12-----10-10-10-10--10-10-10-----9-9-9-9--9-9-9----7-7-7-7--7-7-7-|


e|-----------------------------------------------------------|
B|-----------------------------------------------------------|
G|-----------------------------------------------------------|
D|----------------------------------8----7-------------------|
A|----------------------------------8----7-------------------|
D|-12--0--0--0--3--3--3--/7--7--7--8---7---7/12-12-12-12--|


e|---------------------------------------------------------------------------------------------------------|
B|---------------------------------------------------------------------------------------------------------|
G|---------------------------------------------------------------------------------------------------------|
D|---------------------------------------------------------------------------------------------------------|
A|---------------------------------------------------------------------------------------------------------|
D|-12--0--0--0--3--3--3--/7--7--7--7--15-15-15-15-15--/8--8--8--0--/14-14-14-14-14--/7--7--7--/12-12-12-12-|


Verse 2: (1:21-1:51)
e|-----------------------------------------------------------------|
B|-----------------------------------------------------------------|
G|-----------------------------------------------------------------|
D|----------------------------X-X-X-X------------------------------|
A|----------------------------X-X-X-X--X6-at the end of bass riffs-|
D|-12----break, bass only-----X-X-X-X------------------------------|


Chorus 2: (1:51-2:20)
e|-----------------------------------------------------------------------------------|
B|-----------------------------------------------------------------------------------|
G|-----------------------------------------------------------------------------------|
D|-----------------------------------------------------------------------------------|
A|--5--------------------5--------------------5--------------------7-----------------|
D|-----5-5-5-5--5-5-5-------3-3-3-3--3-3-3-------2-2-2-2--2-2-2-------7-7-7-7--7-7-7-|


e|------------------------------------------------------------------------------------------|
B|------------------------------------------------------------------------------------------|
G|------------------------------------------------------------------------------------------|
D|-------------------------------------------------------------------------7----------------|
A|-13-------------------------12------------------------11----------------------------------|
D|-----12-12-12-12--12-12-12-----10-10-10-10--10-10-10-----9-9-9-9--9-9-9----7-7-7-7--7-7-7-|



e|-----------------------------------------------------------|
B|-----------------------------------------------------------|
G|-----------------------------------------------------------|
D|----------------------------------8----7-------------------|
A|----------------------------------8----7-------------------|
D|-12--0--0--0--3--3--3--/7--7--7--8---7---7/12-12-12-12--|


e|------------------------------------------------------------------|
B|------------------------------------------------------------------|
G|------------------------------------------------------------------|
D|--------------------------------------------8-7-6-7---------------|
A|---------------------------------------5-8---------7-4------------|
D|-12--0--0--0--3--3--3--/7--7--7-----8-----------------7-let ring-|


Solo: (2:20-3:19)
e|---------------------------------------------------------------------------|
B|---------------------------------------------------------------------------|
G|---------------------------------------------------------------------------| All hammer-ons
D|-11-0-12-0-11-0-12-0-14-0-12-0-14-0-15-0-14-0-15-0-17-0-19-0-17-0-19-0-20--|
A|---------------------------------------------------------------------------|
D|---------------------------------------------------------------------------|


e|----------------------------------------------------------------------------|
B|----------------------------------------------------------------------------|
G|----------------------------------------------------------------------------|
D|-0-19-0-17-0-19-0-17-0-15-0-17-0-15-0-14-0-15-0-14-0-12-0-14-0-12-11-0-12-0-| last two bars X8
A|----------------------------------------------------------------------------|
D|----------------------------------------------------------------------------|


Bridge: (3:19-4:04)


e|----------------------------------------------------------|
B|----------------------------------------------------------|
G|-7-7-7-7-7-7-7-7------------------------------------------|
D|-0-0-0-0-0-0-0-0-x4-7-7-7-7-7-7-7-7----7-7-7-7-7-7-7-7----|
A|--------------------7-7-7-7-7-7-7-7-x2-8-8-8-8-8-8-8-8-x2-|
D|----------------------------------------------------------|


e|-----------------------------------------------------------------------------------------------------|
B|-----------------------------------------------------------------------------------------------------|
G|-----------------------------------------------------------------------------------------------------|
D|-7-7-7-7-7-7-7-7----7--7--7--7--7--7--7--7-----12-12-12-12-12-12-12-12----12-12-12-12-12-12-12-12----|
A|-7-7-7-7-7-7-7-7-x2-10-10-10-10-10-10-10-10-x2-12-12-12-12-12-12-12-12-x2-13-13-13-13-13-13-13-13-x2-|
D|-----------------------------------------------------------------------------------------------------|


e|--------------------------------------------------------------------------|
B|--------------------------------------------------------------------------|
G|--------------------------------------------------------------------------|
D|-10-10-10-10-10-10-10-10----10-10-10-10-10-10-10-10----7-7-7-7-7-7-7-7----|
A|-10-10-10-10-10-10-10-10-x2-12-12-12-12-12-12-12-12-x2-0-0-0-0-0-0-0-0-x4-|
D|--------------------------------------------------------------------------|


e|--------------------------------------------------------------------------|
B|--------------------------------------------------------------------------|
G|-7-7-7-7-7-7-7-7----------------------------------------------------------|
D|-0-0-0-0-0-0-0-0-x4-12-12-12-12-12-12-12-12----14-14-14-14-14-14-14-14----|
A|--------------------13-13-13-13-13-13-13-13-x2-13-13-13-13-13-13-13-13-x2-|
D|--------------------------------------------------------------------------|



e|-------------------------------------------------------------------------------------------------------|
B|-------------------------------------------------------------------------------------------------------|
G|-10-10-10-10-10-10-10-10----10-10-10-10-10-10-10-10----9--9--9--9--9--9--9--9--12-12-12-12-12-12-12-12-|
D|-x--x--x--x--x--x--x--x-----11-11-11-11-11-11-11-11-x2-11-11-11-11-11-11-11-11-11-11-11-11-11-11-11-11-|
A|-8--8--8--8--8--8--8--8-x4-----------------------------------------------------------------------------|
D|-------------------------------------------------------------------------------------------------------|


e|----------------------------------------------------------------------------------|
B|----------------------------------------------------------------------------------|
G|-12-12-12-12-12-12-12-12----10-10-10-10-10-10-10-10-------------------------------|
D|-12-12-12-12-12-12-12-12-x2-12-12-12-12-12-12-12-12-x2-12-12-12-12-12-12-12-12----|
A|-------------------------------------------------------12-12-12-12-12-12-12-12-x2-|
D|----------------------------------------------------------------------------------|


e|-------------------------------------------------|
B|-------------------------------------------------|
G|-------------------------------------------------|
D|-11-11-11-11-11-11-11-11-11-11-11-11-11-11-------|
A|-12-12-12-12-12-12-12-12-12-12-12-12-12-12-------|
D|----------------------------------------0-/12-12-|


Chorus 3: (4:04-4:33)
e|-----------------------------------------------------------|
B|-----------------------------------------------------------|
G|-----------------------------------------------------------|
D|----------------------------------8----7-------------------|
A|----------------------------------8----7-------------------|
D|-12--0--0--0--3--3--3--/7--7--7--8---7---7/12-12-12-12--|


e|-------------------------------------------------------------------------------------------------|
B|-------------------------------------------------------------------------------------------------|
G|-------------------------------------------------------------------------------------------------|
D|-------------------------------------------------------------------------------------------------|
A|-------------------------------------------------------------------------------------------------|
D|-12--0--0--0--3--3--3--/7--7--7--/15-15-15-15-15--/8--8--8--/14-14-14-14-14--/7--7--7--/12-12-12-|


e|---------------------------------------------------------------------------|
B|---------------------------------------------------------------------------|
G|---------------------------------------------------------------------------|
D|---------------------------------------------------------------------------|
A|---------------------------------------------------------------------------|
D|-0--0-0--0/12--12-12--0--0-0-0/12--12-12--0--0-0--0--0-0-------------------|

End.

Sign up or Sign in for free.
And start a new thread.
No Threads
More notes by Anonymous