2 years ago (2015-09-30 17:12:07)

Psycho Guitar Tabs - Muse

8 0
135

Tuning: Drop D


Main Riff:


e|-----------------------------|
B|-----------------------------|
G|-----------------------------|
D|-----------------------------|
A|-----------------------------|
D|-0-3p0-5p0-3-0-0-3p0-5b6-5b6-|


Mini Lick:


e|-----------------------------|
B|-13-13-----------------------|
G|-------10~-------------------|
D|-----------------------------|
A|-----------------------------|
D|-----------------------------|


Chorus:


e|---------------|-----------------------------------------------------------|
B|---------------|-----------------------------------------------------------|
G|---------------|-----------------------------------------------------------|
D|---------------|-----------------------------------------------------------|
A|---------------|-----------------------------------------------3-----4b5---|
D|-0-4p0-5p0-6p0-|-7-8p7-11-7-8p7-7-8p7-11p7-8-7-5-7p5-8-7-5-3-3---2-2-------|


Solo 1:


e|---------------------------------------------------------------------------|
B|---------------------------------------------------------------------------|
G|-12b14--12b14r12-10h12r10--------------------------------------------------|
D|-----------------------------------10-10-10-10/0---------------------------|
A|--------------------------10h11h12-----------------------------------------|
D|---------------------------------------------------------------------------|


Extended Chorus:


e|---------------|-----------------------------------------------------------|
B|---------------|-----------------------------------------------------------|
G|---------------|-----------------------------------------------------------|
D|---------------|-----------------------------------------------------------|
A|---------------|-----------------------------------------------------------|
D|-0-4p0-5p0-6p0-|-7-8p7-11-7-8p7-7-8p7-11p7-8-7-5-7p5-8-5-7p5-5-7p5-8p5-7p5-|


e|-----------------------------------------------------------|
B|-----------------------------------------------------------|
G|-----------------------------------------------------------|
D|-----------------------------------------------------------|
A|-----------------------------------------------3-----4b5---|
D|-7-8p7-11-7-8p7-7-8p7-11p7-8-7-5-7p5-8-7-5-3-3---2-2-------|


Verse:


e|---------------------------------------------------------------------------|
B|---------------------------------------------------------------------------|
G|---------------------------------------------------------------------------|
D|---------------------------------------------------------------------------|
A|-------------------------------3h4h5---------------------------------------|
D|-0-0-0-0-0-0-5h6h7-0-0-0-0-0-0-------0-0-0-0-0-0-5p0h3-0-0-0-0-0-0-5h6h7---|


e|---------------------------------------------------------------------------|
B|---------------------------------------------------------------------------|
G|---------------------------------------------------------------------------|
D|---------------------------------------------------------------------------|
A|-------------0h1h3-3-3-3-3-3-0-2h4h5-------------3h4h5---------------------|
D|-3-3-3-3-3-3-------------------------5-5-5-5-5-5-------5-5-5-5-5-5-5h6h7---|


e|---------------------------------------------------------------------------|
B|--------------------------------------------------------13-13--------------|
G|--------------------------------------------------------------10~----------|
D|---------------------------------------------------------------------------|
A|-------------------------------3h4h5---------------------------------------|
D|-0-0-0-0-0-0-5h6h7-0-0-0-0-0-0-------0-0-0-0-0-0-5p0h3-0-------------------|


Bridge:


e|---------------------------------------------------------------------------|
B|---------------------------------------------------------------------------|
G|---------------------------------------------------------------------------|
D|---------------------------------------------------------------------------|
A|-------------------------------3h4h5---------------------------------------|
D|-0-0-0-0-0-0-5h6h7-0-0-0-0-0-0-------0-0-0-0-0-0-5p0h3-0-0-0-0-0-0-5h6h7---|


e|---------------------------------------------------------------------------|
B|--------------------------------------------------------13-13--------------|
G|--------------------------------------------------------------10~----------|
D|---------------------------------------------------------------------------|
A|-------------------------------3h4h5---------------------------------------|
D|-0-0-0-0-0-0-5h6h7-0-0-0-0-0-0-------0-0-0-0-0-0-5p0h3-0-------------------|


Solo 2:


e|---------------------------------------------------------------------------|
B|---------------------------------------------------------------------------|
G|-7-9-10-12-14-15-18-19-----------------------------------------------------|
D|---------------------------------------------------------------------------|
A|-5-7-8--10-12-13-16-17-----------------------------------------------------|
D|---------------------------------------------------------------------------|

End.

Sign up or Sign in for free.
And start a new thread.
No Threads
More notes by Anonymous