Kaabil Hoon (Sad Version) from Kaabil Guitar Tabs & Chords (Tablature)

3 0 1.5k reads

Tuning : STANDARD |EADGBe|

Chords : Fm . Bbm (A#m) . Eb (D#)

Intro

e |--4---4---6---6---3---3---4---4----|
B |-----------------------------------|
G |----5---5---5---5---5---5---5---5--|
D |-----------------------------------|
A |-----------------------------------|
E |-----------------------------------|

Add-on [while playing Intro]

e |-----------------------11-----|
B |--------------------------13--|
G |--16----18--15------13--------|
D |-----17-----------------------|
A |------------------------------|
E |------------------------------|


VERSE

     Fm
Tere saath hi iss aag mein

     Fm
Mere sapne wo sab jal gaye

   Bbm            Eb
Guzre jo pal tere saath mein

     Bbm         Eb
Mere apne wo sab jal gaye
  Bbm             Eb
Udti yeh raakh ab armaano ki
Bbm            Fm
Mujhse puchhe yehi

CHORUS

          Fm
Main tere kaabil hoon ya
Tere kabil nahi
          Fm
Main tere kaabil hoon ya
Tere kabil nahi


















R7

Rishabh Vats /u/R7

verified publisher97 feeds
No Threads
more feeds from /u/R7