Poets of the Fall - Carnival Of Rust Intro Guitar Tabs

20 0 3.3k reads

Capo on Ist Fret


e |----------------------------|
B |------------7-----7h8-------|
G |--------9-----9-------9-----|
D |------9---9-----9-----------|
A |----7-----------------------|
E |----------------------------|


e |----------------------------|
B |------------7-----7s8-------|
G |--------9-----9-------9-----|
D |------9---9-----9-----------|
A |---10-----------------------|
E |----------------------------|


e |----------------------------|
B |------------7-----7s8-------|
G |--------9-----9-------9-----|
D |------9---9-----9-----------|
A |---0------------------------|
E |----------------------------|

e |----------------------0-----|
B |--------5-----------7---7---|
G |----------------------------|
D |------5---5-------7-------7-|
A |---3---------3s5------------|
E |----------------------------|

R7

Rishabh Vats /u/R7

verified publisher97 feeds
No Threads
more feeds from /u/R7