2 years ago (2015-10-04 20:26:40)

Papa Roach - No Matter What Guitar Tabs & Chords (Full Tablature)

19 2
1.1k

Tuning : (1/2) Half Step Down [d# A# F# C# G# D#] / [Eb Ab Db Gb Bb eb]

CHORDS USED : Cadd9 . D . Em7 . Em . G . C

Intro :

d#|------------0-------2-----2----|
A#|------3-------3-------3-----3--|
F#|----0--------------------------|
C#|----------0-------2------2-----|
G#|--3----------------------------|
D#|-------------------------------|

VERSE I :

     Cadd9          D                      Em7
I need you right here, by my side
       Cadd9          D         Em7
You're everything I'm not in my life.
              Cadd9               D
We're indestructible, we are untouchable
             Em7
Nothing can take us down tonight
             Cadd9                    D
You are so beautiful, it should be criminal
                 Em7
that you could be mine.

Bridge :

             C
And we will make it out alive
                D
I'll promise you this love will never die..

CHORUS:

G
  No matter what, I got your back
D                                                                  Em7
  I'll take a bullet for you if it comes to that
Em7
 I swear to God that in the bitter end

Cadd9                                   Em
  We're gonna be the last ones standing


VERSE II :

     Cadd9            D               Em7
So believe me when I say, you're the one
                Cadd9             D           Em7
They'll never forgive us for the things we've done

Bridge :

             C
And we will make it out alive
                D
I'll promise you this love will never die..

CHORUS :

G
 No matter what, I got your back
D                                           Em7
 I'll take a bullet for you if it comes to that
Em7
 I swear to God that in the bitter end
Cadd9
  We're gonna be the last ones standing
G   
 We'll never fight, we'll never fade
D                                       Em7
 I'll promise you forever and my soul today

Em7
  No matter what until the bitter end
Cadd9
  We're gonna be the last ones standing

Electric Guitar Piece :

d#|-------------------------------------------------------|
A#|--0--3---5p3---5--5--7p5-7s8-8^--7b8p7p5---7s8--7^--8^-|
F#|-------4-----4---------------------------7-------------|
C#|-------------------------------------------------------|
G#|-------------------------------------------------------|
D#|-------------------------------------------------------|

d#|--14h15p14--12-----------------------------------------|
A#|---------------15--12----------------------------------|
F#|----------------------14--12--11h12p11-----------------|
C#|----------------------------------------14-12--9-------|
G#|-------------------------------------------------------|
D#|-------------------------------------------------------|

d#|---------------------------------10-10^^^--------------|
A#|-------7h8-8--8s10-10--10s12-12------------------------|
F#|---7s9-------------------------------------------------|
C#|-------------------------------------------------------|
G#|-------------------------------------------------------|
D#|-------------------------------------------------------|

Bridge :

Em
  And everybody said that we would never last,
Bm
  And if they saw us now I bet they'd take it back
C                                         D
  It doesn't matter what we do or what we say
  Cause nothing matters anyway.......

CHORUS :

G
  No matter what, I got your back
D                                           Em7
  I'll take a bullet for you if it comes to that
Em7
  I swear to God that in the bitter end
Cadd9
  We're gonna be the last ones standing
G
  We'll never fight, we'll never fade
D                                        Em7
  I'll promise you forever and my soul today
Em7
  No matter what until the bitter end
Cadd9                                                                           G
  We're gonna be the last ones standing

End.














































































































Sign up or Sign in for free.
And start a new thread.
imghazi4ever
Official Tabs>>
Thank you
3 years ago   2 Report Permalink[S]
More notes by Rishabh Vats
You Are Reading Papa Roach - No Matter What Guitar Tabs & Chords (Full Tablature)