2 years ago (2015-09-30 19:17:21)

Seether - Broken Guitar Tabs & Chords (Full Tablature)

20 0
539

TUNING : [12] Half Step Down [d# A# F# C# G# D#]

Chords Used : Em . C . D


INTRO :

       Em           C                            Harmonics
d# |---2h3-----3----3--------3-----------|     |--12--------|
A# |-------0--------3------3---3-----3---|     |-----12-----|
F# |---------0------0----0---------0-----|     |--------12--|
C# |---2-------------------------0-------| X3  |------------|
G# |----------------3--------------------|     |------------|
D# |-------------------------------------|     |------------|

       D                                          Harmonics
d# |---0h2------3p2---0h2-------3p2-------|    |------------|
A# |-------3--------3-----3---3-----3-----|    |--7---------|
F# |---------2--------------2---------2---|    |-----7------|
C# |---0----------------------------------|    |--------7---|
G# |--------------------------------------|    |------------|
D# |--------------------------------------|    |------------|

Verse Ist :

Em    C              Em      C         
 I wanted you to know I love the way you laugh
Em    C                     D                    
 I wanna hold you high and steal your pain away
Em      C               Em      C
 I keep your photograph, I know it serves me well
Em    C                     D
 I wanna hold you high and steal your pain

CHORUS :

            C  Em  D        C Em
 'Cause I'm broken when I'm open

      D       C    Em   D      C      Em
  And I don't feel like I am strong enough

  D         C  Em  D        C   Em
 'Cause I'm broken when I'm lonesome

     D       C    Em    D           C     Em
 And I don't feel right when you're gone away   

End Chorus with Harmonics :

      Harmonics
d# |-----12^----|
A# |-----12^----|
F# |-----12^----|
C# |------------|
G# |------------|
D# |------------|


Verse IInd :

Em         C          Em      C
 The worst is over now and we can breathe again

Em   C                       D
 I wanna hold you high, you steal my pain away

Em          C                 Em       C    
 There's so much left to learn, and no one left to fight

Em   C                      D
 I wanna hold you high and steal your pain

CHORUS :

             C  Em  D        C Em
  'Cause I'm broken when I'm open
      D       C    Em   D      C      Em
  And I don't feel like I am strong enough
   D         C  Em  D        C   Em
  'Cause I'm broken when I'm lonesome
      D       C    Em    D           C     Em
  And I don't feel right when you're gone away


 Electric Guitar Piece :

       Em             C                 Em   C
d# |------------------------------------------------|
A# |------------------------------------------------|
F# |-----------------------------------------9------|
C# |---------------------------------------9---9----|
G# |------------5--7-7s10--9--9h10--9s7--7----------|
D# |---0---5--7-------------------------------------|

       Em             C                   D
d# |------------------------------------------------------------------------|
A# |------------------------------------------------------------------------|
F# |------------------------------------------------------------------------|
C# |-------------------------------------------12--14--12s7--7s9-9^-9^-9^---|
G# |------------5--7-7s10--9--9h10p9h10--10s12------------------------------|
D# |---0---5--7-------------------------------------------------------------|

CHORUS :

             C  Em  D        C Em
  'Cause I'm broken when I'm open
      D       C    Em   D      C      Em
  And I don't feel like I am strong enough
   D         C  Em  D        C   Em
  'Cause I'm broken when I'm lonesome
      D       C    Em    D           C     Em
  And I don't feel right when you're gone away


Optional :

Violin Piece :
you can play it on Guitar

d# |---15-14-----15-14-----15-14--15-14-----17--15-14----14---|
A# |---------15--------15---------------15------------15------|
F# |----------------------------------------------------------|
C# |----------------------------------------------------------| X3
G# |----------------------------------------------------------|
D# |----------------------------------------------------------|

d# |---15-14-----15-14----------------------------------------|
A# |---------15--------15--15s17^-----------------------------|
F# |----------------------------------------------------------|
C# |----------------------------------------------------------|
G# |----------------------------------------------------------|
D# |----------------------------------------------------------|

CHORUS :

             C  Em  D        C Em
  'Cause I'm broken when I'm open
      D       C    Em   D      C      Em
  And I don't feel like I am strong enough
   D         C  Em  D        C   Em
  'Cause I'm broken when I'm lonesome
      D       C    Em    D           C     Em
  And I don't feel right when you're gone away






















































Sign up or Sign in for free.
And start a new thread.
No Threads
More notes by Rishabh Vats
You Are Reading Seether - Broken Guitar Tabs & Chords (Full Tablature)