2 years ago (2015-10-03 13:28:53)

Avenged Sevenfold - Dear God Guitar Tabs & Chords

2 2
1.9k

Tuning : 2 Steps Down [dAFCGD]

Chords Used :
G . D . Em . Bm . C9 . B7 . D7 . Am7

Intro :

      G                   D                     Em
d |------3-------------------------------------------|
A |------3--0h1p0-------------2----------------------|
F |------0---------2-0------3-------2h4p2p0------0---|
C |-----------------------4-----4------------2s4-----|
G |--------------------------------------------------|
D |---3----------------------------------------------|


                Bm              C9
d |--------------0--0--------------------------------|
A |--------------3----3-------------------1h3-1------|
F |----2---------4------4------------0----------0----|
C |----4h5p4p2---4-----------------2---2-------------|
G |----2---------2----------2-5--3-------------------|
D |-0------------------------------------------------|


      G                 D
d |---------------------2------------------------------------|
A |--------0--0---------3------------------------------------|
F |------2--2---2p0-----2---------------2h4p2--2-------------|
C |---------------------0---4h5--2-4-5-------5---5--4-5-2-0--|
G |----------------------------------------------------------|
D |---3------------------------------------------------------|


VERSE I :

G          D              Em                Bm
  A lonely road, crossed another cold state line
  C9               G            D
  Miles away from those I love, purpose hard to find
G           D             Em                Bm
  While I recall all the words you spoke to me
  C9                       G
  Can't help but wish that I was there
       D
  Back where I'd love to be, oh yeah

 

CHORUS :

G       D        Em            D
  Dear God, the only thing I ask of you
        C9                G
  Is to hold her when I'm not around
           D
  When I'm much too far away
G        D          Em              D
  We all need that person who can be true to you
        C9               G
  But I left her when I found her
      G
  And now I wish I'd stayed
              C9              D
  'Cause I'm lonely and I'm tired
      B7           Em    D  C9
  I'm missing you again, oh no...
        G
  Once again


VERSE II :

G                 D            Em              Bm
  There's nothing here for me, on this barren road
          C9                     G
  There's no one here while the city sleeps
      D
  And all the shops are closed
G                 D            Em                  Bm
  Can't help but think of the times I've had with you
  C9                 G            D
  Pictures and some memories will have to help me through, oh yeah

 

CHORUS :

G       D        Em            D
  Dear God, the only thing I ask of you
        C9                G
  Is to hold her when I'm not around
           D
  When I'm much too far away
G        D          Em              D
  We all need that person who can be true to you
        C9               G
  But I left her when I found her
      G
  And now I wish I'd stayed
              C9              D
  'Cause I'm lonely and I'm tired
      B7           Em    D  C9
  I'm missing you again, oh no...
        G
  Once again

BRIDGE :

Em      D7    C                G  D9
  Some search, never finding a way
Em        D7  C            G  D9
  Before long, they waste away
Em        D7  C                      G  D9
  I found you, something told me to stay
Em       D7 C            G  D9
  I gave in, to selfish ways


Am7                          D
  And how I miss someone to hold
  When hope begins to fade...

VERSE :

G          D               Em                Bm
  A lonely road, crossed another cold state line
  C9               G            D
  Miles away from those I love, purpose hard to find

 

CHORUS :

G       D        Em            D
  Dear God, the only thing I ask of you
        C9                G
  Is to hold her when I'm not around
           D
  When I'm much too far away
G        D          Em              D
  We all need that person who can be true to you
        C9               G
  But I left her when I found her
      G
  And now I wish I'd stayed
              C9              D
  'Cause I'm lonely and I'm tired
      B7           Em    D  C9
  I'm missing you again, oh no...
        G
  Once again

 


End.

Sign up or Sign in for free.
And start a new thread.
R7
If Anyone want those Middle Electric Pieces & Bridges of this Song..
Just Appeal here..
thank you
3 years ago   2 Report Permalink[S]
mgks
guj
3 years ago   0 Report Permalink[S]
More notes by Rishabh Vats