2 years ago (2015-10-06 08:44:46)

O.A.R. - Peace Guitar Tabs & Chords (Full Tablature)

21 0
7k

Capo on 7th Fret

CHORDS USED : D . A . Bm . G

INTRO :

1st Pattern


e |---------------0-----------------|
B |------3-----------3--------------|
G |------2--2-2--------2---2--------|
D |---0------0-----------0----------|
A |---------------------------------|
E |---------------------------------|

2nd Pattern


e |----------------0----------------|
B |------3------------3-------------|
G |------2---2-2--------2---2-------|
D |-----------0-----------0---------|
A |---4-----------------------------|
E |---------------------------------|

3rd Pattern

e |----------------0----------------|
B |------3------------3-------------|
G |------2---2-2--------2---2-------|
D |---2-------0-----------0---------|
A |---------------------------------|
E |---------------------------------|

4th Pattern

    
e |-------------0-------------------|
B |-----------0---------------------|
G |---------------------------------|
D |------0h2-------4s5--4b5r4--2----|
A |---0-----------------------------|
E |---------------------------------|


REMEMBER : Capo on 7th Fret

CHORDS USED : D . A . Bm . G


VERSE :

D
I dont wanna fight no more

A
I only wanna get to shore

Bm                             A
Baby dont slam the door tonight

D                         A
Ran another off the tracks thats time we cant get back

Bm                           A
We can save tomorrow if we try

 

Pre-CHORUS :

G   A
Ohhhhh, till we make this right
G   A

Ohhhhh I wont say good night


CHORUS :

Bm            G
I just wanna make you laugh

D             A
I just wanna see that smile

Bm         G
Babe were only here,

D          A
oh, for a little while

Bm           G            D          A
I just wanna hold you till we fall asleep

       Bm          G         D          A             D
I want love I want us I want you I want me and I want peace

 

VERSE :


D             
Yeah everybody needs a place,
A
somewhere thats warm and safe
Bm                                A
Shelter from this crazy world were in, yeah

D
But tonight I let the rain inside,
A
I took away your place to hide
Bm                          A
Im sorry if I made you cry again

 

Pre-CHORUS :

G   A
Ohhhhh, till we make this right
G   A
Ohhhhh, kiss me goodnight

 

CHORUS :


Bm            G
I just wanna make you laugh

D             A
I just wanna see that smile

Bm         G
Babe were only here,

D          A
oh, for a little while

Bm           G            D          A
I just wanna hold you till we fall asleep

       Bm          G         D          A             D
I want love I want us I want you I want me and I want peace


D . A . Bm . D

Pre-CHORUS :

G   A
Ohhhhh, We Don't have to fight,
G   A
Ohhhhh, kiss me goodnight

CHORUS :


Bm            G
I just wanna make you laugh

D             A
I just wanna see that smile

Bm         G
Babe were only here,

D          A
oh, for a little while

Bm           G            D          A
I just wanna hold you till we fall asleep

       Bm          G         D          A             D
I want love I want us I want you I want me and I want peace


End.

Sign up or Sign in for free.
And start a new thread.
No Threads
More notes by Rishabh Vats