2 years ago (2015-10-02 20:53:28)

3 Doors Down - Here Without You Guitar Tabs & Chords (Full Tablature)

20 0
844

Tuning : Half (1/2) Step Down [d# . A# . F# . C# . G# . D#]

 

Intro :

            Bm      
d# |----------------------------------------------------------------------|
A# |------------------3----------2---------2-------3-------------------|
F# |---------------4-----4----------4----------4------4-------2-------|
C# |-----------4------------4----------4-------------------4-----------|
G# |------2--------------------------------------------------------------|
D# |----------------------------------------------------------------------|

            G                      A
d# |----------------------------------------------------------------------|
A# |----------------------------------------------2----------------------|
F# |-----------------0---------------------2---------2------2----------|
C# |-------------0-------0------------2-----2----------2--------------|
G# |---------2-------------------0--------------------------------------|
D# |-----3---------------------------------------------------------------|

 

Play these Tabs With All Verses :


A hundred >>>days have made me older....................

            Bm
d# |----------------------------------------------------------------------|
A# |------------------3----------2---------2-------3-------------------|
F# |---------------4-----4----------4----------4------4-------4-------|
C# |-----------4------------4----------4-------------------4-----------|
G# |------2--------------------------------------------------------------|
D# |----------------------------------------------------------------------|

Since the >>>last time that I saw your pretty face...................

           A
d# |----------------------------------------------------------------------|
A# |-----------------2--------3---------2-------3s5-------------------|
F# |--------------2-----2--------2---------2---------------------------|
C# |----------2-----------2---------2-----------------------------------|
G# |-----0---------------------------------------------------------------|
D# |----------------------------------------------------------------------|

Again Intro :

           Bm
d# |----------------------------------------------------------------------|
A# |------------------3----------2---------2-------3-------------------|
F# |---------------4-----4----------4----------4------4-------2-------|
C# |-----------4------------4----------4-------------------4-----------|
G# |------2--------------------------------------------------------------|
D# |----------------------------------------------------------------------|

           G                       A
d# |----------------------------------------------------------------------|
A# |----------------------------------------------2----------------------|
F# |-----------------0---------------------2--------2------2-----------|
C# |-------------0-------0------------2-----2---------2---------------|
G# |---------2-------------------0--------------------------------------|
D# |-----3---------------------------------------------------------------|


A thousand >>>lies have made me colder..........................

            Bm
d# |----------------------------------------------------------------------|
A# |------------------3----------2---------2-------3-------------------|
F# |---------------4-----4----------4----------4------4-------4-------|
C# |-----------4------------4----------4-------------------4-----------|
G# |------2--------------------------------------------------------------|
D# |----------------------------------------------------------------------|

And I >>>don't think I can look at this the same................

           A
d# |----------------------------------------------------------------------|
A# |-----------------2--------3---------2-------3s5-------------------|
F# |--------------2-----2--------2---------2---------------------------|
C# |----------2-----------2---------2-----------------------------------|
G# |-----0---------------------------------------------------------------|
D# |----------------------------------------------------------------------|

>>>But all the miles that separate.............Dissappear Now When I'm

           Bm
d# |----------------------------------------------------------------------|
A# |------------------3----------2---------2-------3-------------------|
F# |---------------4-----4----------4----------4------4-------2-------|
C# |-----------4------------4----------4-------------------4-----------|
G# |------2--------------------------------------------------------------|
D# |----------------------------------------------------------------------|

>>>dreaming of your face................

           G                       A
d# |----------------------------------------------------------------------|
A# |----------------------------------------------2----------------------|
F# |-----------------0---------------------2--------2------2-----------|
C# |-------------0-------0------------2-----2---------2---------------|
G# |---------2-------------------0--------------------------------------|
D# |-----3---------------------------------------------------------------|


CHORUS :

    >>>I'm here without you, baby

             D
d# |------------------0---------2-----------0---2---3---2--0---------|
A# |--------------2-----2----------2----------------------------3------|
F# |-----------3------------3----------3--------------------------------|
C# |-------0--------------------------------------------------------------|
G# |----------------------------------------------------------------------|
D# |----------------------------------------------------------------------|

 
  >>>But you're still on my lonely mind

           A
d# |-------------------------------5---------3-------2-------------------|
A# |-----------------2----------------2---------2--------5--------------|
F# |--------------2-----2-------------------------------------------------|
C# |----------2-----------2-----------------------------------------------|
G# |-----0----------------------------------------------------------------|
D# |-----------------------------------------------------------------------|

 
   >>>I think about you, baby

          Bm
d# |------------------------------0-------------------0-------------------|
A# |------------------3----------------3------------------3---------------|
F# |---------------4-----4-----------------4----------------------4-------|
C# |-----------4------------4------------------4--------------4-----------|
G# |------2-----------------------------------------------------------------|
D# |-------------------------------------------------------------------------|

     >>>And I dream about you all the time

           G                       A
d# |----------------------------------------------------------------------|
A# |----------------------------------------------2----------------------|
F# |-----------------0---------------------2--------2------2-----------|
C# |-------------0-------0------------2-----2---------2---------------|
G# |---------2-------------------0--------------------------------------|
D# |-----3---------------------------------------------------------------|

Then Repeat the Process.

VERSE :

      Bm
The miles just keep rollin'
             A
As the people leave their way to say hello

                    Bm
I've heard this life is overrated
         A                                                     G     A
But I hope that it gets better as we go, oh, yeah, yeah


CHORUS :

D
I'm here without you, baby
A
But you're still on my lonely mind
Bm
I think about you, baby
G                 A
And I dream about you all the time

D
I'm here without you, baby
A                                         Bm
But you're still with me in my dreams
          G            A         
And tonight, girl, its only you and me


Bridge :

Bm                     
Everything I know,
D
and anywhere I go (oh whoa)
A                                  G
It gets hard but it won't take away my love (oh whoa)
Bm                    
And when the last one falls
D
When it's all said and done
A                                  G                         
It gets hard but it wont take away my love, whoa, oh, oh

CHORUS :

D
I'm here without you, baby
A
But you're still on my lonely mind
Bm
I think about you, baby
G                 A
And I dream about you all the time

D
I'm here without you, baby
A                                        Bm
But you're still with me in my dreams
          G            A
And tonight, girl, its only you and me

End...




















Sign up or Sign in for free.
And start a new thread.
No Threads
More notes by Rishabh Vats