3 years ago (2015-10-06 13:47:10)

Three Days Grace - Never Too Late Guitar Tabs & Chords (Full Tablature)

21 0
9.2k

TUNING : 2 Steps Down [dAFCGD]

Chords Used : C . Em . Bm . D . G


But If you want to play on Standard Tuning [eBGDAE].
Then Play these Chords :


A# (Instead of C) . Dmin (Instead of Em) . Am (Instead of Bm) . C (Instead of D) . F (Instead of G)


INTRO :

     C               Em
d |----------------------------------------------|
A |----------3---------------3--1--0----------|
F |-------0-----0-------------------------------|  X3
C |--------------------------------------2-------|
G |--3------------------2-----------------------|
D |------------------0---------------------------|

     Bm                  D
d |------------------------------------------|
A |----------2-----------3-----------------|
F |------------------------2-----------------|  
C |-------4-----4--------0-----------------|
G |--2--------------------------------------|
D |------------------------------------------|



Repeat This VERSE With INTRO :

C  Em
    This world will never be
C  Em
    What I expected
C   Em
    And if I don't belong
Bm  D
      Who would have guessed it


C  Em
   I will not leave alone
C  Em
    Everything that I own
C  Em                        
    To make you feel like

      Bm
 It's not too late
D
 It's never too late


CHORUS :

Em   C
       Even if I say
Bm   D     
       It'll be alright
Em   C
       Still I hear you say
Bm                D   
  You want to end your life

Em        C     
     Now and again we try
Bm          D     
    To just stay alive
C                 Em     
  Maybe we'll turn it all around
              Bm
'Cause it's not too late
 D
 It's never too late


Then Again With INTRO :

No one will ever see
This side reflected
And if there's something wrong
Who would have guessed it
And I have left alone
Everything that I own
To make you feel like
It's not too late
It's never too late


CHORUS :

Em   C
       Even if I say
Bm   D     
       It'll be alright
Em   C
       Still I hear you say
Bm                D   
  You want to end your life

Em        C     
     Now and again we try
Bm          D     
    To just stay alive
C                 Em     
  Maybe we'll turn it all around
              Bm
'Cause it's not too late
 D
 It's never too late


      C     
The world we knew
 G        D
 Won't come back
       C
The time we've lost
 G      D
 Can't get back
      C
The life we had
 G       D           C     E    Bm   D......
 Won't be ours Again....................



      C            Em
d |-----------------0---------------|
A |----------3----------------------|
F |------0------0-------------------|  X3
C |----------------------------------|
G |--3------------------------------|
D |----------------------------------|

               D
d |------------2-------------------|
A |------------3-------------------|
F |------------2--------------------|   
C |------------0--------------------|
G |---------------------------------|
D |---------------------------------|



Continue These Tabs With This Para.

C  Em
   This world will never be
C  Em   
   What I expected
C  Em                 D   
   And if I don't belong



CHORUS :

Em   C
       Even if I say
Bm   D     
       It'll be alright
Em   C
       Still I hear you say
Bm                D   
  You want to end your life

Em        C     
     Now and again we try
Bm          D     
    To just stay alive
C                 Em     
  Maybe we'll turn it all around
              Bm
'Cause it's not too late
 D
 It's never too late


End.













Sign up or Sign in for free.
And start a new thread.
No Threads
More notes by Rishabh Vats