2 years ago (2015-10-04 21:23:17)

Kick - Hangover Guitar Tabs & Chords (Full Tablature)

19 1
2.6k

TUNING : STANDARD [eBGDAE]

Song Begins :


VERSE :

Aww..

A                     G#min
Jaane kab hothon pe
       F#min
Dil ne rakh di dil ki baatein
A                  G#min
Samjha nahi yeh dil
      F#min
Isko hum toh rahe samjhaate (x2)

         A                  E
Maine dekha tujhe bhula ke
      A               E
Har ek tarqeeb laga ke
      A                E
Har nuskhe ko aazma ke
    F#min
Par dil se kabhi na utre (utre.. utre..)


CHORUS :


 F#min  G#min   A
  Han------go------ver...
   Bm     E
  teri yaadon ka

 F#min  G#min   A
  Han------go------ver...
   Bm    F#min
  teri baaton ka


 F#min  G#min   A
  Han------go------ver...
   Bm     E
  teri yaadon ka

 F#min  G#min   A
  Han------go------ver...
   Bm    F#min
  teri baaton ka


VERSE :

A                     G#min
Jaane kab hothon pe
       F#min
Dil ne rakh di dil ki baatein
A                  G#min
Samjha nahi yeh dil
      F#min
Isko hum toh rahe samjhaate (x2)

         A                  E
Maine dekha tujhe bhula ke
      A               E
Har ek tarqeeb laga ke
      A                E
Har nuskhe ko aazma ke
    F#min
Par dil se kabhi na utre (utre.. utre..)


CHORUS :


 F#min  G#min   A
  Han------go------ver...
   Bm     E
  teri yaadon ka

 F#min  G#min   A
  Han------go------ver...
   Bm    F#min
  teri baaton ka


 F#min  G#min   A
  Han------go------ver...
   Bm     E
  teri yaadon ka

 F#min  G#min   A
  Han------go------ver...
   Bm    F#min
  teri baaton ka


Electric Guitar Piece -


e |----------------4b5r4b5r4------|
b |---0----2--5----------------------|
G |------------------------------------| X2
D |------------------------------------|
A |------------------------------------|
E |------------------------------------|


Final -

e |----------------4b5r4b5r4----2---------------|
b |---0----2--5-------------------------5--2--5---|
G |---------------------------------------------------|
D |---------------------------------------------------|
A |---------------------------------------------------|
E |---------------------------------------------------|

Then Repeat the First Tablature Again.


e |----------------4b5r4b5r4------|
b |---0----2--5----------------------|
G |------------------------------------| X2
D |------------------------------------|
A |------------------------------------|
E |------------------------------------|


Final -

e |----------------4b5r4b5r4----2-----|
b |---0----2--5---------------------------|
G |-----------------------------------------|
D |-----------------------------------------|
A |-----------------------------------------|
E |-----------------------------------------|



Verse :


F#min              E
 Jaane kab meri neend udi
E           F#min
 Soyi soyi raaton mein
E                    F#min
 Jaane kab mera haath gaya
E                 F#min
 Soneya tere haathon mein, aww.. (x2)


F#min        
 Chal badhte teri ore
       Bm             
 Main jab bhi kadam uthati hoon
A
 Jaaun tujh se door door
       E                F#min
 Toh paas tere aa jaati hoon

         A                  E
Maine dekha tujhe bhula ke
      A               E
Har ek tarqeeb laga ke
      A                E
Har nuskhe ko aazma ke
    F#min
Par dil se kabhi na utre (utre.. utre..)


CHORUS :

 F#min  G#min   A
  Han------go------ver...
   Bm     E
  teri yaadon ka

 F#min  G#min   A
  Han------go------ver...
   Bm    F#min
  teri baaton ka


 F#min  G#min   A
  Han------go------ver...
   Bm     E
  teri yaadon ka

 F#min  G#min   A
  Han------go------ver...
   Bm    F#min
  teri baaton ka



F#min                 E
 Ek jagah pe kabhi ruka nahin
E                       F#min
 Ek jagah pe kabhi tika nahin
F#min         E
 Jaisa maine chaha mujhe
E               F#min
 Waisa koyi dikha nahi, aww.. (x2)

F#min
Par jabse dekha tujhe
    Bm
Jo huaa nahi wo hone lagaa
A
Dil mera mujhe jaga ke
E                       F#min
Khud seene mein sone laga

       A              E
Meri fitrat badal rahi hai
       A                 E
Jaise barqat koyi huyi hai
      A                  E
Bas ab toh duaa yahi hai
   F#min
Ki dil se kabhi na utre (utre.. utre..)

CHORUS :

 F#min  G#min   A
  Han------go------ver...
   Bm     E
  teri yaadon ka

 F#min  G#min   A
  Han------go------ver...
   Bm    F#min
  teri baaton ka


 F#min  G#min   A
  Han------go------ver...
   Bm     E
  teri yaadon ka

 F#min  G#min   A
  Han------go------ver...
   Bm    F#min
  teri baaton ka





Sign up or Sign in for free.
And start a new thread.
ifreporter
/u/ifreporter(ifreporter.infeeds.com)
thanks man, don't need that song but well defined loved this and love my future guitar
3 years ago   0 Report Permalink[S]
More notes by Rishabh Vats