2 years ago (2017-02-19 18:08:15)

Pacify Her by Melanie Martinez Guitar Tabs & Chords [Full Tablature]

3 0
1.4k

TUNING : STANDARD |EADGBe|

CHORDS : Dm . Am . F . Em

INTRO

e |------1-----0----0------------------|
B |----3-----1----1-------1-----1------|
G |--2-----2------------2-----2-----2--|
D |-------------------3-----3-----3----|
A |------------------------------------|
E |------------------------------------|

e |------1-----0----------------------|
B |----3-----1---1-----0-------1---1--|
G |--2-----2---------0-------2---2----|
D |----------------2-----2-3----------|
A |-----------------------------------|
E |-----------------------------------|

VERSE

Dm          Am        F
Tired, blue boy walks my way

Dm      Am       Em   F
Holding a girl's hand

     Dm    Am           F
That basic bitch leaves finally

    Dm    Am       Em  F
Now I can take her man

Semi-Chorus

F                        Dm
 Someone told me, "Stay away from things that aren't yours."
     Am
 But was he yours, if he wanted me so bad?

CHORUS

F
 Pacify her

Dm                   Am
 She's getting on my nerves

 You don't love her
                       F
 Stop lying with those words
 Pacify her
Dm                   Am
 She's getting on my nerves

 You don't love her
                     F     Dm    Am 
Stop lying with those words,word,word

VERSE

Dm      Am        F
I can't stand her whining
Dm          Am    Em  F
Where's her binky now?

    Dm     Am        F         
And loving her seems tiring

   Dm        Am       Em         F
So boy, just love me, down, down, down

Semi-Chorus

F                        Dm
 Someone told me, "Stay away from things that aren't yours."

     Am
 But was he yours, if he wanted me so bad?

CHORUS

F
 Pacify her

Dm                   Am
 She's getting on my nerves

 You don't love her
                       F
 Stop lying with those words
 Pacify her
Dm                   Am
 She's getting on my nerves

 You don't love her
                      F      Dm     Am    
 Stop lying with those words, word, word

F
 Pacify her
Dm                   Am
 She's getting on my nerves

 You don't love her
 Stop lying with those words

CHORUS

Repeat.


End.





















































Sign up or Sign in for free.
And start a new thread.
No Threads
More notes by Rishabh Vats