2 years ago (2017-02-19 14:41:34)

Haaye Dil by Jubin Nautiyal Guitar Tabs & Chords (Full Tablature)

4 0
1.2k

TUNING : STANDARD |EADGBe|

CHORDS : C#m (Dbm) . B . A

You can play these chords (with 1st & 2nd Strings Open).

-  C#m

e |-0-|
B |-0-|
G |-6-|
D |-6-|
A |-4-|
E |-x-|

-   B 

e |-0-|
B |-0-|
G |-4-|
D |-4-|
A |-2-|
E |-x-|

-   A

e |-0-|
B |-0-|
G |-2-|
D |-2-|
A |-0-|
E |-x-|

INTRO :

C#m (Dbm)

e |-------------------------------------------------|
B |-------9--------9------12-12-12------------------|
G |-6--6--6--6--6--6--6--6s9--9--9--9--9--8--8--8s6-|
D |-------------------------------------------------|
A |-------------------------------------------------|
E |-------------------------------------------------|

e |-------------------------------------------------|
B |-------9--------9------12-12-12------------------|
G |----6--6--6--6--6--6--6s9--9--9--11-11-11--9--8--|
D |-------------------------------------------------|
A |-------------------------------------------------|
E |-------------------------------------------------|

e |-------------------------------------------------|
B |-------9--------9------12-12-12------------------|
G |-6--6--6--6--6--6--6--6s9--9--9--9--9--8--8--8s6-|
D |-------------------------------------------------|
A |-------------------------------------------------|
E |-------------------------------------------------|

                                       You can pick one of these :
e |---------------------------------|-------9--------|------10------|
B |-------9--------9------12-12-12--|----------------|--7------7----|
G |----6--6--6--6--6--6--6s9--9--9--|--11p9---11p9--OR----9------9--|
D |---------------------------------|----------------|--------------|
A |---------------------------------|----------------|--------------|
E |---------------------------------|----------------|--------------|

Riff : x3

Strumming :

Up : V
Down : ^
x : Mute

     ^    v  ^ v    ^    v  ^ v  ^  v ^ v
e |--x----x--x-x----x----x--x-x--x--x-x-x-|
B |--x----x--x-x----x----x--x-x--x--x-x-x-|
G |-9/11-11--x-x--11/13-13--x-x-13-13-x-x-| x3
D |--x----x--x-x----x----x--x-x--x--x-x-x-|
A |-7/9---9--x-x---9/11-11--x-x-11-11-x-x-|
E |--x----x--x-x----x----x--x-x--x--x-x-x-|

    ^ v ^ v  ^ v ^ v ^ v ^ v
e |-x-x-x-x--x-x-x-x-x-x-x-x-|
B |-x-x-x-x--x-x-x-x-x-x-x-x-|
G |-8-8-x-x--4-4-x-x-4-4-x-x-| x1
D |-x-x-x-x--x-x-x-x-x-x-x-x-|
A |-6-6-x-x--2-2-x-x-2-4-x-x-|
E |-x-x-x-x--x-x-x-x-x-x-x-x-|

VERSE

C#m             B
 Pana tujhko to khwab tha mera

A                B
 Tu kyon bhool gaya

C#m             B
 Pana tujhko to sath tha mera

A                B
 Tu kyon bhool gaya

Semi-Chorus

C#m            B
 Dil gham se bhara
         A        B
 Bhiga hua tere bina

  C#m         B
 Agar tu na dikha

          A            B
 Tu naa mila to mar jayega


CHORUS

       C#m       B         A    B 
 Haaye dil, haaye jaan tu hai kahan
       C#m        B        A   B
 Kis liye, kyun hua, iss tarah tu juda

C#m . B . A      B
            Tu juda

C#m . B . A . B
Wooo-----------

INSTRUMENTAL

C#m . B . A . B

Repeat the INTRO Part :
-

VERSE

C#m              B
 Dil hai toota huva
              A      B
 Main jaoon kahan, kahan

C#m              B
 Tu hai rootha huva

              A      B
 Main jaaun kahan, kahan

C#m            
 Aakhon mein tera chehra

B
 Khwabon mein tu hai mera

A                         B
 Mujhmein tu ab bhi bas raha

C#m
 Tujhko kaise dun bhula

B
 Jiyunga main kis tarah

A                   B
 Mujhko de tu yeh bata

Semi-Chorus

C#m              B          A
 Iss kadar tu bhula na de mujhe
       B
 Tu mujhe

C#m             B
 Pana tujhko to khwab tha mera

A               B
 Par woh toot gaya


CHORUS

      C#m       B          A    B
Haaye dil, haaye jaan tu hai kahan

      C#m       B        A     B
Haaye dil, haaye jaan tu hai kahan
    C#m        B
Kis liye, kyun hua
    A    B
Is tarah tu juda

Bridge

         C#m              B
Haan yeh bechainiyan, yeh tanhaiyan
    A                B
Hai kyon iss kadar mere dil bata

    C#m            B 
Yeh bebakiyan, yeh khamoshiyan

    A                B
Hai kyun iss kadar tere bina


CHORUS

      C#m       B          A    B
Haaye dil, haaye jaan tu hai kahan
    C#m          B
Kis liye, kyun hua
     A   B 
Is tarah tu juda

C#m.

Tu juda, tu juda
Tu juda, tu juda

End.

Appeal here, if you want electric guitar piece of this song.












































































Sign up or Sign in for free.
And start a new thread.
No Threads
More notes by Rishabh Vats