2 years ago (2017-01-26 18:04:14)

Yeh Ishq Hai from Rangoon Guitar Tabs & Chords (Tablature)

3 0
1.2k

Movie : Rangoon
Singer :
Arijit Singh
Year : 2017

Tuning
: STANDARD |EADGBe|

Chords : E . E7 . Asus2 . C#m . Bm

INTRO

E . E7 x2

CHORDS

    E     E7      E     Asus2  E7       
Yeh ishq hai, yeh ishq hai
    E             E7
Yeh ishq hai, yeh ishq hai

VERSE

E                E7
 Sufi ke sulfe ki

E                    E7
 Lau uth ke kehti hai

E
 Aatish ye bujhke bhi

E7                 E
 Jalti hi rehti hai

CHORUS

    E            C#m 
Yeh ishq hai, ye ishq hai
    E            C#m
Yeh ishq hai, ye ishq hai

VERSE

E
 Sufi ke sulfe ki

E7
 Lau uth ke kehti hai

E
 Aatish ye bujhke bhi

E7                  E
 Jalti hi rehti hai


     E             C#m
 Yeh ishq hai, yeh ishq hai

E . E7

BRIDGE

G                  Asus2
Sahil pe sar rakhke

G              Asus2  E
Dariya hai soya hai


G                Asus2  
Sadiyon se behta hai

G                 E
Aankhon ne boya hain

CHORUS

    E               C#m
Yeh ishq hai re, ye ishq hai

    E               C#m
Yeh ishq hai re, ye ishq hai

VERSE

E                  E7
 Tanhayi dhunta hai

E                   E7
 Parchaayi bunta hai

E
 Resham si nazron ko

E7                   E
 Aankhon se sunta hai

CHORUS 

    E             C#m
Yeh ishq hai, yeh ishq hai
    E     C#m          E
Yeh ishq hai, ye ishq hai

Stringed Instrument Piece :

e |--------------------------------|
B |--------------------------------|
G |-----------------------7-9-7-6--|
D |--9--9-7-9--9-7-9--9-7----------|
A |--------------------------------|
E |--------------------------------|

e |--------------------------------|
B |--------------------------------|
G |--------------------------------|
D |--9--9-7-9--9-7-9--9-7-6-7-9-6--|
A |--------------------------------|
E |--------------------------------|

e |--------------------------------|
B |--------------------------------|
G |-----------------------7-9-7-6--|
D |--9--9-7-9--9-7-9--9-7----------|
A |--------------------------------|
E |--------------------------------|

e |--------------------------------|
B |--------------------------------|
G |--------------------------------|
D |--9--9-7-9--9-7-9---------------|
A |--------------------------------|
E |--------------------------------|

BRIDGE

E7           
Sufi ke sulfe ki

Bm
Lau utthi allah hu

E7                      Bm
Allah hu allah hu allah hu

E7
Sufi ke sulfe ki

Bm
Lau utthi allah hu

E7
Jalte hi rehna hai

Bm                 G
Baki na main na tu

    E            C#m
Yeh ishq hai, ye ishq hai


VERSE

E
Bekhud se rehta hai

E7
Yeh kaisa sufi hai

E
Jage toh Tabrizi

E7               E
Bole toh Rumi hai


CHORUS

    E            C#m
Yeh ishq hai, ye ishq hai

    E         C#m
Yeh ishq hai..

End.





































































Sign up or Sign in for free.
And start a new thread.
No Threads
More notes by Rishabh Vats