2 years ago (2016-05-01 04:02:40)

Breaking Benjamin - Ashes Of Eden Guitar Tabs & Chords

3 0
1.1k

TUNING : STANDARD [eBGDAE]

Below Tabs 
Structure,
there is full Chords Structure.

- TABS

INTRO : x2

   Cmin
e |------3--|
B |----4----|
G |---------|
D |---------|
A |--3------|
E |---------|

    G#
e |------3--|
B |----4----|
G |---------|
D |---------|
A |---------|
E |--4------|

    D#
e |------3--|
B |----4----|
G |---------|
D |--1------|
A |---------|
E |---------|

    A#
e |------3-----|
B |----4----6--|
G |------------|
D |------------|
A |--1---------|
E |------------|

- Play these tabs with Verse


VERSE : x2


e |------3--|
B |----4----|
G |---------|
D |---------|
A |--3------|
E |---------|

e |------3--|
B |----4----|
G |---------|
D |---------|
A |---------|
E |--4------|

e |------3--|
B |----4----|
G |---------|
D |--1------|
A |---------|
E |---------|

e |------3-----|
B |----4----6--|
G |------------|
D |------------|
A |--1---------|
E |------------|

Pre-chorus : x2

e |------3--|
B |----4----|
G |---------|
D |---------|
A |--3------|
E |---------|

e |------3--|
B |----4----|
G |---------|
D |---------|
A |--1------|
E |---------|

e |------3--|
B |----4----|
G |---------|
D |---------|
A |---------|
E |--4------|

e |------3-----|
B |----4-------|
G |------------|
D |------------|
A |------------|
E |--4------6--|

CHORUS : x2

e |------3--|
B |----4----|
G |---------|
D |--1------|
A |---------|
E |---------|

e |------3--|
B |----4----|
G |---------|
D |---------|
A |--1------|
E |---------|

e |------3--|
B |----4----|
G |---------|
D |---------|
A |--3------|
E |---------|

e |------4--3--|
B |----4-------|
G |------------|
D |------------|
A |------------|
E |--4---------|


- Repeat Intro tabs

e |------3--|
B |----4----|
G |---------|
D |---------|
A |--3------|
E |---------|

e |------3--|
B |----4----|
G |---------|
D |---------|
A |---------|
E |--4------|

e |------3--|
B |----4----|
G |---------|
D |--1------|
A |---------|
E |---------|

e |------3-----|
B |----4----6--|
G |------------|
D |------------|
A |--1---------|
E |------------|

VERSE : x2

e |------3--|
B |----4----|
G |---------|
D |---------|
A |--3------|
E |---------|

e |------3--|
B |----4----|
G |---------|
D |---------|
A |---------|
E |--4------|

e |------3--|
B |----4----|
G |---------|
D |--1------|
A |---------|
E |---------|

e |------3-----|
B |----4----6--|
G |------------|
D |------------|
A |--1---------|
E |------------|

Pre-chorus : x2

e |------3--|
B |----4----|
G |---------|
D |---------|
A |--3------|
E |---------|

e |------3--|
B |----4----|
G |---------|
D |---------|
A |--1------|
E |---------|

e |------3--|
B |----4----|
G |---------|
D |---------|
A |---------|
E |--4------|

e |------3-----|
B |----4-------|
G |------------|
D |------------|
A |------------|
E |--4------6--|

CHORUS : x2

e |------3--|
B |----4----|
G |---------|
D |--1------|
A |---------|
E |---------|

e |------3--|
B |----4----|
G |---------|
D |---------|
A |--1------|
E |---------|

e |------3--|
B |----4----|
G |---------|
D |---------|
A |--3------|
E |---------|

e |------4--3--|
B |----4-------|
G |------------|
D |------------|
A |------------|
E |--4---------|

Bridge : x4

e |------3--|
B |----4----|
G |---------|
D |---------|
A |--3------|
E |---------|

e |------3--|
B |----4----|
G |---------|
D |---------|
A |--1------|
E |---------|

e |------3--|
B |----4----|
G |---------|
D |---------|
A |---------|
E |--4------|

e |------3-----|
B |----4-------|
G |------------|
D |------------|
A |------------|
E |--4------6--|

CHORUS : x4

e |------3--|
B |----4----|
G |---------|
D |--1------|
A |---------|
E |---------|

e |------3--|
B |----4----|
G |---------|
D |---------|
A |--1------|
E |---------|

e |------3--|
B |----4----|
G |---------|
D |---------|
A |--3------|
E |---------|

e |------4--3--|
B |----4-------|
G |------------|
D |------------|
A |------------|
E |--4---------|

- CHORDS

VERSE :

         Cmin
Will the faithful be rewarded

        G#
When we come to the end

       D#
Will I miss the final warning

         A#
From the lie that I have lived

         Cmin
Is there anybody calling

      G#
I can see the soul within

        D#
And I am not worthy

    A#
I am not worthy of this

Pre-chorus :

Cmin      A#            G#
 Are you with me after all

                   A#
 Why can't I hear you

Cmin      A#                 G#
 Are you with me through it all

                        A#
 Then why can't I feel you

CHORUS :


D#           A#              Cmin
 Stay with me, don't let me go

                 G#
 Because there's nothing left at all

D#           A#              Cmin
 Stay with me, don't let me go

           G#
 Until the Ashes of Eden fall

VERSE :

         Cmin     
Will the darkness fall upon me

         G#
When the air is growing thin

         D#
Will the light begin to pull me

       G#
To its everlasting will

      Cmin
I can hear the voices haunting

         G#
There is nothing left to fear

        D#
And I am still calling

    A#
I am still calling to you

Pre-chorus :

Cmin      A#            G#
 Are you with me after all
                   A#
 Why can't I hear you
Cmin      A#                 G#
 Are you with me through it all
                        A#
 Then why can't I feel you

CHORUS :

D#           A#              Cmin
 Stay with me, don't let me go
                 G#
 Because there's nothing left at all
D#           A#              Cmin
 Stay with me, don't let me go
           G#
 Until the Ashes of Eden fall

Cmin . A# . G#  (x4)

(Don't let go)
Why can't I hear you

CHORUS :

D#           A#              Cmin
 Stay with me, don't let me go
                 G#
 Because there's nothing left at all
D#           A#              Cmin
 Stay with me, don't let me go
           G#
 Until the Ashes of Eden fall

D#        A#                Cmin
 Heaven above me, take my hand
(Stay with me, don't let me go)
                     G#
 Shine until there's nothing left but you

D#        A#                Cmin
 Heaven above me, take my hand
(Stay with me, don't let me go)
                     G#
 Shine until there's nothing left but you

Cmin.

End.

 

































































































































































































































































































Sign up or Sign in for free.
And start a new thread.
No Threads
More notes by Rishabh Vats