2 years ago (2015-10-05 04:54:42)

Fuel - Hemorrhage (In My Hands) Intro Guitar Tabs & Chords

13 0
368


Tuning :(1/2) Half Step Down [D#.G#.C#.F#.A#.d#]


      Bm
d# |----------0--------|

A# |--------3---3------|
F# |------0-------0----|
C# |----4--------------|
G# |--2----------------|
D# |-------------------|

      A
d# |----------0--------|
A# |--------3---3------|
F# |------0-------0----|
C# |----4-----------4--|
G# |--0----------------|
D# |-------------------|

      G
d# |----------0--------|
A# |--------3---3------|
F# |------0-------0----|
C# |----4--------------|
G# |-------------------|
D# |--3----------------|

      A
d# |----------0--------|
A# |--------3---3------|
F# |------0-------0----|
C# |----4-----------4--|
G# |--0----------------|
D# |-------------------|

End.

If you want whole Song's Guitar Pattern,
Then Appeal Here for.

Sign up or Sign in for free.
And start a new thread.
No Threads
More notes by Rishabh Vats