2 years ago (2015-10-05 04:44:52)

The Nights by Avicii Guitar Tabs & Chords

10 0
401

TUNING : STANDARD [eBGDAE]

CAPO : 6th Fret

VERSE :

     Am 
Hey, once upon a younger year


When all our shadows disappeared

    G                          Am
The animals inside came out to play

          Am
Hey, went face to face with all our fears


Learned our lessons through the tears

     G                            Am
Made memories we knew would never fade

Pre-Chorus :  

         F          
One day my father—he told me,

            C
"Son, don't let it slip away."

   G                                Am
He took me in his arms, I heard him say,

              F
"When you get older

                     C
Your wild heart will live for younger days

G
Think of me if ever you're afraid."

CHORUS :

              F                             C
He said, "One day you'll leave this world behind

          G               Am
So live a life you will remember."

          F                         C
My father told me when I was just a child

              G                 Am
These are the nights that never die

My father told me

Instrumental Part on Guitar :

1.

e |-------------------|
B |-------------------|
G |--2--0-2-4-2-0-----|
D |----------------2--|
A |-------------------|
E |-------------------|

e |------------------------|
B |--------------------0---|
G |-2-2p0---0---0---0h2----|
D |-------3---3---3--------|
A |------------------------|
E |------------------------|

e |-------------------------|
B |-------------------------|
G |------0-2--0-2-4-2-0-----|
D |----2-----------------2--|
A |--3----------------------|
E |-------------------------|

e |--------------------|
B |--------------0--2--|
G |-2-2p0---0--2-------|
D |-------3------------|
A |--------------------|
E |--------------------|

2.

e |-------------|
B |------2-2-2--|
G |--0h2--------|
D |-------------|
A |-------------|
E |-------------|

e |----------3--5--|
B |------2-3-------|
G |--0h2-----------|
D |----------------|
A |----------------|
E |----------------|

VERSE :

     Am 
When thunder clouds start pouring down


Light a fire they can't put out

G                                   Am
Carve your name into those shining stars

             Am            
He said, "Go venture far beyond these shores.


Don't forsake this life of yours.

     G                                  Am
I'll guide you home no matter where you are."

Pre-Chorus : 

         F          

One day my father—he told me,
            C
"Son, don't let it slip away."
   G                                Am
He took me in his arms, I heard him say,

              F
"When you get older
                     C
Your wild heart will live for younger days
G
Think of me if ever you're afraid."

CHORUS :

              F                             C
He said, "One day you'll leave this world behind
          G               Am
So live a life you will remember."
          F                         C
My father told me when I was just a child
              G                 Am
These are the nights that never die
My father told me

Again Repeat that Instrumental Part :

These are the nights that never die
My father told me

End.

Sign up or Sign in for free.
And start a new thread.
No Threads
More notes by Rishabh Vats