3 years ago (2016-04-30 22:21:14)

Teri Meri Kahaani Guitar Tabs & Chords from Movie Gabbar Is Back

10 2
8.7k

Song - Teri Meri Kahaani
Movie : Gabbar Is Back
Singers : Arijit Singh & Palak Muchal


Tuning : STANDARD [eBGDAE]


Intro : 

D#m

Verse :

B                           D#m
 Mujh mein safar tu karti rahe

B                           D#m
 Har ik saans mein guzarti rahe

         B    
Shaamo subah tu mera

      D#m
Tere bina kya mera

         B
Do jismo jaan ek hai

   C#
Na hona kabhi tu juda

CHORUS :

            D#m
Teri meri kahaani

                 B     C#
Hai baarishon ka paani

              D#m
Banke jo ishq barse

            B    C#
Teri meri kahaani


            D#m
Teri meri kahaani
                 B     C#
Hai baarishon ka paani
              D#m
Banke jo ishq barse
            B    C#
Teri meri kahaani

Electric Guitar Riff :

e |--------------------------|
B |-------4-4-4--6-7--6-4-4--|
G |--3--4--------------------|
D |--------------------------|
A |--------------------------|
E |--------------------------|

e |--------------------------|
B |-------4-4-4--9-----------|
G |--3--4----------10-8-8-8--|
D |--------------------------|
A |--------------------------|
E |--------------------------|

e |-------------------------------|
B |-------------------------------|
G |--6--8-10^-10^-10^--8-6-4-4-4--|
D |-------------------------------|
A |-------------------------------|
E |-------------------------------|

e |--------------------------|
B |-----6----4s6s7--7b9r7s4--|
G |--4----6------------------|
D |--------------------------|
A |--------------------------|
E |--------------------------|

Bridge :

F#             C#
 Dekho na kaisi ijaazat mili hai

B       G#m    A#m         D#m
 Ek doosre mein hifaazat mili hai

D#m       B                C#
 Jeene ki saari zaroorat mili hai
D#m                   C#  
 Ye jaam hi hai jaisa yunhi hamesha
   B               C#
 Hamesha rahe jis tarah

Pre-Chorus :

         B
Shaamo subah tu mera
      D#m
Tere bina kya mera
         B
Do jismo jaan ek hai
   C#
Na hona kabhi tu juda

CHORUS :

            D#m
Teri meri kahaani
                 B     C#
Hai baarishon ka paani
              D#m
Banke jo ishq barse
            B    C#
Teri meri kahaani


            D#m
Teri meri kahaani
                 B     C#
Hai baarishon ka paani
              D#m
Banke jo ishq barse
            B    C#
Teri meri kahaani


Bridge :

F#               C#
 Hum se ye jo bhi harqat hui hai

B          G#m   A#m       D#min
 Mohabbat mohabbat mohabbat hui hai

D#m             B
 Kuch itne hain hum tum

            C#
 Kami kuch nahi hai


D#m    
Jitna bhi jeena hai

C#
Tujhko hi jeena hai

B                 C#
Jeete rahein jis tarah

Pre-Chorus :

         B
Shaamo subah tu mera
      D#m
Tere bina kya mera
         B
Do jismo jaan ek hai
   C#
Na hona kabhi tu juda

CHORUS :

            D#m
Teri meri kahaani
                 B     C#
Hai baarishon ka paani
              D#m
Banke jo ishq barse
            B    C#
Teri meri kahaani


            D#m
Teri meri kahaani
                 B     C#
Hai baarishon ka paani
              D#m
Banke jo ishq barse
            B    C#
Teri meri kahaani

End.

If you need Second Electic Part of this Song.
Appeal Here.







































































































Sign up or Sign in for free.
And start a new thread.
anonymous
second part yaar
3 years ago   0 Report Permalink[S]
anonymous
Yes i need the second part of the electric solo as well. I have to perform this song soon so please hurry sir! thanks alot
3 years ago   0 Report Permalink[S]
More notes by Rishabh Vats