2 years ago (2015-10-05 09:29:26)

Ishqedarriyaan (Title Song) Guitar Tabs & Chords from Movie Ishqedarriyan

10 0
2.1k

Details :

Movie : Ishqedarriyaan
Cast: Evelyn Sharma & Mahaakshay Chakraborty
Lyricist: Kumaar, Kausar Munir, Manoj Muntashir & Bilal Saeed
Director: V K Prakash
Singers : Ankit Tiwari





Capo on 2nd Fret :


- INTRO :

e |-------------------|
B |--------1--3p1-----|
G |----------------2--|
D |-------------------|
A |--0----------------|
E |-----0-------------|

e |-----------------------|
B |--------0h1--3s5--1p0--|
G |-----------------------|
D |-----------------------|
A |--0--------------------|
E |----0------------------|

e |-------------------|
B |--------1--3p1-----|
G |----------------2--|
D |-------------------|
A |--0----------------|
E |-----0-------------|

e |-------------------------|
B |--------0h1--3s5--8s3s5--|
G |-------------------------|
D |-------------------------|
A |--0----------------------|
E |----0--------------------|

Verse :

      Am            F
Rishtedariyan chhod jaayein

      G    Em       Am
Ishqedarriyaan sang jaayein
   Am             F
Dildaariyaan dhal jaayein

     G     Em       Am
Ishqedarriyaan rang jaaein

Pre-Chorus :

Am
Mattha bhi mitthi bhi laage
G
Khatta bhi meethi bhi laage
F                       G       Em  G
Thodi si teekhi bhi ishqdaari

Am
Kacchi bhi pakki bhi laage

G
Jhooti bhi sacchi bhi laage

F                      G
Thodi si acchi bhi ishqdaari

CHORUS :

  Am   F   G  Em

Ishqaaaaaaaaaa..
  Am   F   G  Em
Ishqaaaaaaaaaa..
  Am   F   G  Em
Ishqaaaaaaaaaa..
  Am   F   G  Em
Ishqaaaaaaaaaa.. 


- Violin Part on Guitar : [optional]

Note : Capo on 2nd Fret:

e |--------------------------|
B |--------------5^---6-5-3--|
G |--5--7--5--7--------------|
D |--------------------------|
A |--------------------------|
E |--------------------------|

e |----------------------------|
B |----------------------------|
G |--1--3--1--3s10--8----------|
D |--------------------9-10-9--|
A |----------------------------|
E |----------------------------|

e |-----------------------------------------------------------|
B |-------8---5----------------1p0----------------5-1-0-3-----|
G |--5--7---7-----3--1--3--0--------2s4-5---2-4-5----------2--|
D |-----------------------------------------------------------|
A |-----------------------------------------------------------|
E |-----------------------------------------------------------|

Verse :

    Am             G        F      Em
Din raat ki baahon mein kho jaayein

    Am             G     F      Am
Dil jinse miley, apne ho jaayein


Pre-Chorus :

Am
Subah ki bholi bhi laage

G
Shaam ki bhaali bhi laage

F                       G     Em  G
Thodi si bhooli bhi ishqdaari

Am
Kacchi bhi pakki bhi laage

G
Jhooti bhi sacchi bhi laage

F                      G
Thodi si acchi bhi ishqdaari

CHORUS :

   Am F G Em
Ishqaaaaaaaaaa..
   Am F G Em
Ishqaaaaaaaaaa..
   Am F G Em
Ishqaaaaaaaaaa..
   Am F G Em
Ishqaaaaaaaaaa..


Verse :

  Am              G       F     Em  G
Aaja main haathon ko badh jaayein

   Am            G       F     Am
Aa khud apni duniya bann jaayein

Pre-Chorus :


Am
Chhat na chhajja na chaahe

G
Lajj na lajja na chaahe

F                       G
Thodi si bacchi bhi ishqdaari


Verse :

      Am            F
Rishtedariyan chhod jaayein
     G    Em        Am
Ishqedarriyaan sang jaayein
   Am             F
Dildaariyaan dhal jaayein
     G    Em        Am
Ishqedarriyaan rang jaaein

CHORUS :

   Am F G Em
Ishqaaaaaaaaaa..
   Am F G Em
Ishqaaaaaaaaaa..
   Am F G Em
Ishqaaaaaaaaaa..
   Am F G Em
Ishqaaaaaaaaaa..

End.

If You Want Electrical Guitar Riff of this Song..
Appeal Here.

Sign up or Sign in for free.
And start a new thread.
No Threads
More notes by Rishabh Vats