3 years ago (2015-10-04 19:17:29)

Kahan Hai Khuda Guitar Tabs & Chords by Subash Pradhan from Mad About Dance

20 1
1.9k

Tuning : STANDARD [eBGDAE]

CHORDS USED : C#min . E . B . A . F#min


INTRO :

e |------0-----0----|
B |----4---4h5---4--|
G |--4--------------|
D |-----------------|
A |-----------------|
E |-----------------|

e |------0----------|
B |----4---4h5------|
G |--4---------4--2-|
D |-----------------|
A |-----------------|
E |-----------------|

e |------0-----------------|
B |----4---4h5---------7s9-|
G |--4-----------4s6-------|
D |------------------------|
A |------------------------|
E |------------------------|


C#min   B
  Hey.. Hey..
C#min   B
  Hey.. Hey.. X2


VERSE :

 C#min          B
Teri Ye Kaisi Sazaa Hai
 C#min           B
Teri Ye Kaisi Khataa Hai
    C#min      B         A
Manzilein Kyon Mujhse Khafaa Hain
     C#min        B        A
Mere Khawaab Kyon Mujhse Judaa Hain


CHORUS :

  E   B         A
Kahan Hai Tu Khuda
  E   B        A
Kahan Hai Ye Bataa

- Again play the Intro Part -

C#min   B
  Hey.. Hey..
C#min   B
  Hey.. Hey.. X2

VERSE :

      E          B       C#min
Na Khushi Na Toh Dard Jiyega
       E         B       C#min
Kaun Lakeeron Ki Raah Seeyega
      E       B       C#min
Ab Tu Kyon Khamosh Hua Hai
      E        B        C#min
Saya Mera Kuch Mujhse Khafa Hai

      C#min     B          A
Khali Hath Kyon Lauti Meri Duaa


CHORUS :

  E   B         A
Kahan Hai Tu Khuda
  E   B        A
Kahan Hai Ye Bataa
  E   B         A
Kahan Hai Tu Khuda
  E   B        F#min  A
Kahan Hai Ye Bataa...aaaa


- Again the Intro Part -

C#min   B
  Hey.. Hey..
C#min   B
  Hey.. Hey.. X2

Electric Guitar Piece :

h - Hammer On
p - Pull off
s - Slide
~ - Hold the Particular Note for a While

e |--------------------------------------------------|
B |------7s9~-----10-9-7s5-7p5s4-5--5s7--------------|
G |--4s6--------------------------------6p4h6~~~s8-9-|
D |--------------------------------------------------|
A |--------------------------------------------------|
E |--------------------------------------------------|

VERSE :

   E        B      C#min
Kismat Kyon Aisa Karti Hai
        E       B      C#min
Pathhar Ka Kyon Dil Rakhti Hai
      E          B         C#min
Aaj Kahunga Main Chup Na Rahunga
        E      B      C#min
Jitni Sazaa De Utni Sahunga
     C#min    B          A
Tera Diya Har Zakhm Ab Mera

CHORUS :

  E      B      A
Kahaa..........aan
       E    B   A
Hai Khuda......aaa

C#min   B
  Hey.. Hey..
C#min   B
  Hey.. Hey.. X2

  E   B         A
Kahan Hai Tu Khuda
  E   B        A    B   C#min
Kahan Hai Ye Bataa

End.

Sign up or Sign in for free.
And start a new thread.
R7
Adjusted the one Shit.
4 years ago   0 Report Permalink[S]
More notes by Rishabh Vats